ISO-10303-21;
HEADER;
FILE_DESCRIPTION (( 'STEP AP203' ),
    '1' );
FILE_NAME ('BK7-LNPBSC-25.4-488.STEP',
    '2021-01-05T02:02:12',
    ( '' ),
    ( '' ),
    'SwSTEP 2.0',
    'SolidWorks 2020',
    '' );
FILE_SCHEMA (( 'CONFIG_CONTROL_DESIGN' ));
ENDSEC;

DATA;
#1 = DIRECTION ( 'NONE',  ( -0.7071067811865475727, 0.7071067811865475727, 0.000000000000000000 ) ) ;
#2 = DIRECTION ( 'NONE',  ( -0.000000000000000000, 1.000000000000000000, -0.000000000000000000 ) ) ;
#3 = COORDINATED_UNIVERSAL_TIME_OFFSET ( 8, 0, .AHEAD. ) ;
#4 = CARTESIAN_POINT ( 'NONE',  ( 12.69999999999999574, 12.69999999999999574, 12.69999999999999929 ) ) ;
#5 = PLANE ( 'NONE',  #170 ) ;
#6 = SHAPE_DEFINITION_REPRESENTATION ( #133, #158 ) ;
#7 = APPROVAL_STATUS ( 'not_yet_approved' ) ;
#8 = PERSON_AND_ORGANIZATION_ROLE ( 'creator' ) ;
#9 = DIRECTION ( 'NONE',  ( -0.000000000000000000, -0.000000000000000000, -1.000000000000000000 ) ) ;
#10 = FACE_OUTER_BOUND ( 'NONE', #148, .T. ) ;
#11 = CARTESIAN_POINT ( 'NONE',  ( -12.69999999999999574, -12.69999999999999396, 12.69999999999999929 ) ) ;
#12 = ADVANCED_FACE ( 'NONE', ( #65 ), #235, .F. ) ;
#13 = ORIENTED_EDGE ( 'NONE', *, *, #232, .T. ) ;
#14 = DIRECTION ( 'NONE',  ( 0.7071067811865474617, 0.7071067811865474617, 0.000000000000000000 ) ) ;
#15 = VERTEX_POINT ( 'NONE', #43 ) ;
#16 = CC_DESIGN_PERSON_AND_ORGANIZATION_ASSIGNMENT ( #93, #194, ( #109 ) ) ;
#17 = VERTEX_POINT ( 'NONE', #217 ) ;
#18 = ORIENTED_EDGE ( 'NONE', *, *, #237, .F. ) ;
#19 = COORDINATED_UNIVERSAL_TIME_OFFSET ( 8, 0, .AHEAD. ) ;
#20 = DIRECTION ( 'NONE',  ( 1.000000000000000000, -2.220446049250312588E-16, 0.000000000000000000 ) ) ;
#21 = CARTESIAN_POINT ( 'NONE',  ( 12.69999999999999574, 12.69999999999999574, 12.69999999999999929 ) ) ;
#22 = LINE ( 'NONE', #128, #105 ) ;
#23 = PERSON_AND_ORGANIZATION ( #124, #90 ) ;
#24 = EDGE_CURVE ( 'NONE', #258, #315, #215, .T. ) ;
#25 = DIRECTION ( 'NONE',  ( -0.000000000000000000, 0.000000000000000000, 1.000000000000000000 ) ) ;
#26 = DATE_TIME_ROLE ( 'classification_date' ) ;
#27 = VECTOR ( 'NONE', #296, 1000.000000000000000 ) ;
#28 = EDGE_CURVE ( 'NONE', #113, #17, #123, .T. ) ;
#29 = LINE ( 'NONE', #226, #111 ) ;
#30 = VECTOR ( 'NONE', #231, 1000.000000000000000 ) ;
#31 = CARTESIAN_POINT ( 'NONE',  ( -12.69999999999999751, -12.69999999999999929, -12.69999999999999929 ) ) ;
#32 = DIRECTION ( 'NONE',  ( 0.000000000000000000, 0.000000000000000000, -1.000000000000000000 ) ) ;
#33 = FACE_OUTER_BOUND ( 'NONE', #82, .T. ) ;
#34 = EDGE_CURVE ( 'NONE', #144, #89, #29, .T. ) ;
#35 = PLANE ( 'NONE',  #48 ) ;
#36 = ORIENTED_EDGE ( 'NONE', *, *, #34, .F. ) ;
#37 = CARTESIAN_POINT ( 'NONE',  ( 12.69999999999999929, 12.69999999999999929, -12.69999999999999929 ) ) ;
#38 = EDGE_LOOP ( 'NONE', ( #184, #317, #208 ) ) ;
#39 = EDGE_CURVE ( 'NONE', #141, #89, #72, .T. ) ;
#40 = ORIENTED_EDGE ( 'NONE', *, *, #92, .T. ) ;
#41 = VECTOR ( 'NONE', #99, 1000.000000000000000 ) ;
#42 = PERSON_AND_ORGANIZATION ( #124, #90 ) ;
#43 = CARTESIAN_POINT ( 'NONE',  ( 12.69999999999999574, 12.69999999999999574, -12.69999999999999929 ) ) ;
#44 =( NAMED_UNIT ( * ) SI_UNIT ( $, .STERADIAN. ) SOLID_ANGLE_UNIT ( ) );
#45 = EDGE_LOOP ( 'NONE', ( #60, #94, #312, #173 ) ) ;
#46 = CALENDAR_DATE ( 2021, 5, 1 ) ;
#47 = DIRECTION ( 'NONE',  ( 1.000000000000000000, 0.000000000000000000, 0.000000000000000000 ) ) ;
#48 = AXIS2_PLACEMENT_3D ( 'NONE', #86, #58, #14 ) ;
#49 = PERSON_AND_ORGANIZATION ( #124, #90 ) ;
#50 = CARTESIAN_POINT ( 'NONE',  ( 12.69999999999999929, 12.69999999999999929, 12.69999999999999929 ) ) ;
#51 = DATE_AND_TIME ( #302, #221 ) ;
#52 = EDGE_CURVE ( 'NONE', #315, #141, #307, .T. ) ;
#53 = CARTESIAN_POINT ( 'NONE',  ( -12.69999999999999751, -12.69999999999999929, -12.69999999999999929 ) ) ;
#54 = PERSON_AND_ORGANIZATION ( #124, #90 ) ;
#55 = APPROVAL_DATE_TIME ( #51, #122 ) ;
#56 = EDGE_CURVE ( 'NONE', #17, #282, #75, .T. ) ;
#57 = DIRECTION ( 'NONE',  ( 0.000000000000000000, 0.000000000000000000, 1.000000000000000000 ) ) ;
#58 = DIRECTION ( 'NONE',  ( 0.7071067811865475727, -0.7071067811865475727, 0.000000000000000000 ) ) ;
#59 = DIRECTION ( 'NONE',  ( 1.000000000000000000, 0.000000000000000000, 0.000000000000000000 ) ) ;
#60 = ORIENTED_EDGE ( 'NONE', *, *, #211, .T. ) ;
#61 = CLOSED_SHELL ( 'NONE', ( #213, #200, #76, #256, #134 ) ) ;
#62 = EDGE_LOOP ( 'NONE', ( #13, #162, #191 ) ) ;
#63 = ORIENTED_EDGE ( 'NONE', *, *, #187, .T. ) ;
#64 = EDGE_LOOP ( 'NONE', ( #266, #79, #120, #63 ) ) ;
#65 = FACE_OUTER_BOUND ( 'NONE', #166, .T. ) ;
#66 = AXIS2_PLACEMENT_3D ( 'NONE', #267, #243, #125 ) ;
#67 = LOCAL_TIME ( 10, 2, 12.00000000000000000, #3 ) ;
#68 = APPROVAL_DATE_TIME ( #318, #129 ) ;
#69 = ORIENTED_EDGE ( 'NONE', *, *, #211, .F. ) ;
#70 = CC_DESIGN_PERSON_AND_ORGANIZATION_ASSIGNMENT ( #205, #185, ( #321 ) ) ;
#71 = CARTESIAN_POINT ( 'NONE',  ( 12.69999999999999574, 12.69999999999999574, -12.69999999999999929 ) ) ;
#72 = LINE ( 'NONE', #101, #27 ) ;
#73 = VECTOR ( 'NONE', #288, 999.9999999999998863 ) ;
#74 = CC_DESIGN_APPROVAL ( #304, ( #321 ) ) ;
#75 = LINE ( 'NONE', #272, #97 ) ;
#76 = ADVANCED_FACE ( 'NONE', ( #275 ), #153, .F. ) ;
#77 = CALENDAR_DATE ( 2021, 5, 1 ) ;
#78 = DIRECTION ( 'NONE',  ( 0.000000000000000000, -0.000000000000000000, 1.000000000000000000 ) ) ;
#79 = ORIENTED_EDGE ( 'NONE', *, *, #39, .F. ) ;
#80 = APPROVAL_DATE_TIME ( #278, #304 ) ;
#81 = EDGE_CURVE ( 'NONE', #260, #15, #138, .T. ) ;
#82 = EDGE_LOOP ( 'NONE', ( #319, #117, #219, #242 ) ) ;
#83 = CARTESIAN_POINT ( 'NONE',  ( 12.69999999999999929, 12.69999999999999929, 12.69999999999999929 ) ) ;
#84 = CARTESIAN_POINT ( 'NONE',  ( 0.000000000000000000, 0.000000000000000000, 12.69999999999999929 ) ) ;
#85 = VECTOR ( 'NONE', #247, 1000.000000000000000 ) ;
#86 = CARTESIAN_POINT ( 'NONE',  ( 12.69999999999999929, 12.69999999999999929, 12.69999999999999929 ) ) ;
#87 = PLANE ( 'NONE',  #249 ) ;
#88 = ORIENTED_EDGE ( 'NONE', *, *, #116, .T. ) ;
#89 = VERTEX_POINT ( 'NONE', #179 ) ;
#90 = ORGANIZATION ( 'UNSPECIFIED', 'UNSPECIFIED', '' ) ;
#91 = LINE ( 'NONE', #311, #73 ) ;
#92 = EDGE_CURVE ( 'NONE', #17, #238, #303, .T. ) ;
#93 = PERSON_AND_ORGANIZATION ( #124, #90 ) ;
#94 = ORIENTED_EDGE ( 'NONE', *, *, #142, .F. ) ;
#95 = FACE_OUTER_BOUND ( 'NONE', #62, .T. ) ;
#96 = CARTESIAN_POINT ( 'NONE',  ( 12.69999999999999574, 12.69999999999999574, 12.69999999999999929 ) ) ;
#97 = VECTOR ( 'NONE', #181, 1000.000000000000000 ) ;
#98 = DIRECTION ( 'NONE',  ( 0.000000000000000000, 0.000000000000000000, 1.000000000000000000 ) ) ;
#99 = DIRECTION ( 'NONE',  ( -0.000000000000000000, 1.000000000000000000, -0.000000000000000000 ) ) ;
#100 = VECTOR ( 'NONE', #20, 1000.000000000000000 ) ;
#101 = CARTESIAN_POINT ( 'NONE',  ( 12.69999999999999929, 12.69999999999999929, 12.69999999999999929 ) ) ;
#102 = MANIFOLD_SOLID_BREP ( '¾µÏ', #131 ) ;
#103 = MANIFOLD_SOLID_BREP ( 'Í¹Ì¨-À', #61 ) ;
#104 = COORDINATED_UNIVERSAL_TIME_OFFSET ( 8, 0, .AHEAD. ) ;
#105 = VECTOR ( 'NONE', #126, 1000.000000000000000 ) ;
#106 = CC_DESIGN_DATE_AND_TIME_ASSIGNMENT ( #152, #246, ( #286 ) ) ;
#107 = SECURITY_CLASSIFICATION ( '', '', #274 ) ;
#108 = FACE_OUTER_BOUND ( 'NONE', #38, .T. ) ;
#109 = PRODUCT ( 'BK7-LNPBSC-25.4-488', 'BK7-LNPBSC-25.4-488', '', ( #316 ) ) ;
#110 = LINE ( 'NONE', #37, #151 ) ;
#111 = VECTOR ( 'NONE', #2, 1000.000000000000000 ) ;
#112 = APPROVAL_PERSON_ORGANIZATION ( #23, #304, #225 ) ;
#113 = VERTEX_POINT ( 'NONE', #222 ) ;
#114 = ORIENTED_EDGE ( 'NONE', *, *, #142, .T. ) ;
#115 = LINE ( 'NONE', #160, #137 ) ;
#116 = EDGE_CURVE ( 'NONE', #141, #258, #156, .T. ) ;
#117 = ORIENTED_EDGE ( 'NONE', *, *, #92, .F. ) ;
#118 = APPROVAL_PERSON_ORGANIZATION ( #276, #122, #250 ) ;
#119 = APPLICATION_PROTOCOL_DEFINITION ( 'international standard', 'config_control_design', 1994, #154 ) ;
#120 = ORIENTED_EDGE ( 'NONE', *, *, #52, .F. ) ;
#121 = ORIENTED_EDGE ( 'NONE', *, *, #52, .T. ) ;
#122 = APPROVAL ( #7, 'UNSPECIFIED' ) ;
#123 = LINE ( 'NONE', #4, #313 ) ;
#124 = PERSON ( 'UNSPECIFIED', 'UNSPECIFIED', 'UNSPECIFIED', ('UNSPECIFIED'), ('UNSPECIFIED'), ('UNSPECIFIED') ) ;
#125 = DIRECTION ( 'NONE',  ( -2.220446049250312588E-16, 1.000000000000000000, 0.000000000000000000 ) ) ;
#126 = DIRECTION ( 'NONE',  ( -2.220446049250312588E-16, 1.000000000000000000, 0.000000000000000000 ) ) ;
#127 = APPROVAL_STATUS ( 'not_yet_approved' ) ;
#128 = CARTESIAN_POINT ( 'NONE',  ( -12.69999999999999574, -12.69999999999999396, -12.69999999999999929 ) ) ;
#129 = APPROVAL ( #174, 'UNSPECIFIED' ) ;
#130 = DIRECTION ( 'NONE',  ( -0.7071067811865475727, -0.7071067811865475727, 0.000000000000000000 ) ) ;
#131 = CLOSED_SHELL ( 'NONE', ( #301, #268, #12, #193, #308 ) ) ;
#132 = APPROVAL_PERSON_ORGANIZATION ( #49, #129, #270 ) ;
#133 = PRODUCT_DEFINITION_SHAPE ( 'NONE', 'NONE',  #286 ) ;
#134 = ADVANCED_FACE ( 'NONE', ( #271 ), #300, .F. ) ;
#135 = ORIENTED_EDGE ( 'NONE', *, *, #232, .F. ) ;
#136 = CALENDAR_DATE ( 2021, 5, 1 ) ;
#137 = VECTOR ( 'NONE', #216, 1000.000000000000000 ) ;
#138 = LINE ( 'NONE', #71, #100 ) ;
#139 = PRODUCT_RELATED_PRODUCT_CATEGORY ( 'detail', '', ( #109 ) ) ;
#140 = CC_DESIGN_APPROVAL ( #129, ( #286 ) ) ;
#141 = VERTEX_POINT ( 'NONE', #83 ) ;
#142 = EDGE_CURVE ( 'NONE', #258, #164, #210, .T. ) ;
#143 = FACE_OUTER_BOUND ( 'NONE', #45, .T. ) ;
#144 = VERTEX_POINT ( 'NONE', #245 ) ;
#145 = CARTESIAN_POINT ( 'NONE',  ( 0.000000000000000000, 0.000000000000000000, 0.000000000000000000 ) ) ;
#146 = ORIENTED_EDGE ( 'NONE', *, *, #28, .T. ) ;
#147 = CARTESIAN_POINT ( 'NONE',  ( -12.69999999999999751, -12.69999999999999929, 12.69999999999999929 ) ) ;
#148 = EDGE_LOOP ( 'NONE', ( #88, #240, #121 ) ) ;
#149 = FACE_OUTER_BOUND ( 'NONE', #306, .T. ) ;
#150 = CARTESIAN_POINT ( 'NONE',  ( -12.69999999999999751, -12.69999999999999929, 12.69999999999999929 ) ) ;
#151 = VECTOR ( 'NONE', #189, 1000.000000000000114 ) ;
#152 = DATE_AND_TIME ( #46, #310 ) ;
#153 = PLANE ( 'NONE',  #309 ) ;
#154 = APPLICATION_CONTEXT ( 'configuration controlled 3d designs of mechanical parts and assemblies' ) ;
#155 = CC_DESIGN_DATE_AND_TIME_ASSIGNMENT ( #229, #26, ( #107 ) ) ;
#156 = LINE ( 'NONE', #224, #305 ) ;
#157 = CARTESIAN_POINT ( 'NONE',  ( 12.69999999999999929, -12.69999999999999929, 12.69999999999999929 ) ) ;
#158 = ADVANCED_BREP_SHAPE_REPRESENTATION ( 'BK7-LNPBSC-25.4-488', ( #103, #102, #188 ), #314 ) ;
#159 = CC_DESIGN_APPROVAL ( #122, ( #107 ) ) ;
#160 = CARTESIAN_POINT ( 'NONE',  ( 12.69999999999999574, 12.69999999999999574, 12.69999999999999929 ) ) ;
#161 = CARTESIAN_POINT ( 'NONE',  ( -12.69999999999999751, -12.69999999999999929, 12.69999999999999929 ) ) ;
#162 = ORIENTED_EDGE ( 'NONE', *, *, #183, .T. ) ;
#163 = AXIS2_PLACEMENT_3D ( 'NONE', #279, #25, #47 ) ;
#164 = VERTEX_POINT ( 'NONE', #53 ) ;
#165 = CC_DESIGN_PERSON_AND_ORGANIZATION_ASSIGNMENT ( #54, #182, ( #107 ) ) ;
#166 = EDGE_LOOP ( 'NONE', ( #195, #283, #269, #291 ) ) ;
#167 = CARTESIAN_POINT ( 'NONE',  ( 12.69999999999999574, 12.69999999999999574, 12.69999999999999929 ) ) ;
#168 = ORIENTED_EDGE ( 'NONE', *, *, #187, .F. ) ;
#169 = APPLICATION_PROTOCOL_DEFINITION ( 'international standard', 'config_control_design', 1994, #176 ) ;
#170 = AXIS2_PLACEMENT_3D ( 'NONE', #298, #206, #78 ) ;
#171 = DIRECTION ( 'NONE',  ( 2.220446049250312588E-16, -1.000000000000000000, 0.000000000000000000 ) ) ;
#172 = DIRECTION ( 'NONE',  ( 1.000000000000000000, -2.220446049250312588E-16, 0.000000000000000000 ) ) ;
#173 = ORIENTED_EDGE ( 'NONE', *, *, #39, .T. ) ;
#174 = APPROVAL_STATUS ( 'not_yet_approved' ) ;
#175 = DIRECTION ( 'NONE',  ( -0.7071067811865474617, -0.7071067811865474617, 0.000000000000000000 ) ) ;
#176 = APPLICATION_CONTEXT ( 'configuration controlled 3d designs of mechanical parts and assemblies' ) ;
#177 = DIRECTION ( 'NONE',  ( -1.000000000000000000, 0.000000000000000000, 0.000000000000000000 ) ) ;
#178 = AXIS2_PLACEMENT_3D ( 'NONE', #248, #98, #227 ) ;
#179 = CARTESIAN_POINT ( 'NONE',  ( 12.69999999999999929, 12.69999999999999929, -12.69999999999999929 ) ) ;
#180 = PERSON_AND_ORGANIZATION ( #124, #90 ) ;
#181 = DIRECTION ( 'NONE',  ( -2.220446049250312588E-16, 1.000000000000000000, 0.000000000000000000 ) ) ;
#182 = PERSON_AND_ORGANIZATION_ROLE ( 'classification_officer' ) ;
#183 = EDGE_CURVE ( 'NONE', #238, #260, #22, .T. ) ;
#184 = ORIENTED_EDGE ( 'NONE', *, *, #28, .F. ) ;
#185 = PERSON_AND_ORGANIZATION_ROLE ( 'design_supplier' ) ;
#186 = CARTESIAN_POINT ( 'NONE',  ( 12.69999999999999929, 12.69999999999999929, 12.69999999999999929 ) ) ;
#187 = EDGE_CURVE ( 'NONE', #315, #144, #203, .T. ) ;
#188 = AXIS2_PLACEMENT_3D ( 'NONE', #145, #199, #297 ) ;
#189 = DIRECTION ( 'NONE',  ( -0.7071067811865474617, -0.7071067811865474617, 0.000000000000000000 ) ) ;
#190 = DIRECTION ( 'NONE',  ( -0.000000000000000000, 0.000000000000000000, 1.000000000000000000 ) ) ;
#191 = ORIENTED_EDGE ( 'NONE', *, *, #81, .T. ) ;
#192 = ORIENTED_EDGE ( 'NONE', *, *, #228, .F. ) ;
#193 = ADVANCED_FACE ( 'NONE', ( #108 ), #273, .T. ) ;
#194 = PERSON_AND_ORGANIZATION_ROLE ( 'design_owner' ) ;
#195 = ORIENTED_EDGE ( 'NONE', *, *, #81, .F. ) ;
#196 = PERSON_AND_ORGANIZATION_ROLE ( 'creator' ) ;
#197 = DIRECTION ( 'NONE',  ( 0.000000000000000000, 0.000000000000000000, 1.000000000000000000 ) ) ;
#198 = DIRECTION ( 'NONE',  ( 1.000000000000000000, 0.000000000000000000, 0.000000000000000000 ) ) ;
#199 = DIRECTION ( 'NONE',  ( 0.000000000000000000, 0.000000000000000000, 1.000000000000000000 ) ) ;
#200 = ADVANCED_FACE ( 'NONE', ( #201 ), #5, .F. ) ;
#201 = FACE_OUTER_BOUND ( 'NONE', #285, .T. ) ;
#202 = DIRECTION ( 'NONE',  ( 0.000000000000000000, 0.000000000000000000, 1.000000000000000000 ) ) ;
#203 = LINE ( 'NONE', #157, #265 ) ;
#204 = LOCAL_TIME ( 10, 2, 12.00000000000000000, #241 ) ;
#205 = PERSON_AND_ORGANIZATION ( #124, #90 ) ;
#206 = DIRECTION ( 'NONE',  ( 0.000000000000000000, 1.000000000000000000, 0.000000000000000000 ) ) ;
#207 = EDGE_CURVE ( 'NONE', #282, #260, #281, .T. ) ;
#208 = ORIENTED_EDGE ( 'NONE', *, *, #56, .F. ) ;
#209 = VECTOR ( 'NONE', #9, 1000.000000000000000 ) ;
#210 = LINE ( 'NONE', #150, #209 ) ;
#211 = EDGE_CURVE ( 'NONE', #89, #164, #110, .T. ) ;
#212 = AXIS2_PLACEMENT_3D ( 'NONE', #21, #1, #295 ) ;
#213 = ADVANCED_FACE ( 'NONE', ( #143 ), #35, .F. ) ;
#214 = LINE ( 'NONE', #31, #30 ) ;
#215 = LINE ( 'NONE', #147, #233 ) ;
#216 = DIRECTION ( 'NONE',  ( 0.000000000000000000, 0.000000000000000000, -1.000000000000000000 ) ) ;
#217 = CARTESIAN_POINT ( 'NONE',  ( -12.69999999999999574, -12.69999999999999396, 12.69999999999999929 ) ) ;
#218 = DIRECTION ( 'NONE',  ( 1.000000000000000000, -2.220446049250312588E-16, 0.000000000000000000 ) ) ;
#219 = ORIENTED_EDGE ( 'NONE', *, *, #56, .T. ) ;
#220 = PLANE ( 'NONE',  #66 ) ;
#221 = LOCAL_TIME ( 10, 2, 12.00000000000000000, #251 ) ;
#222 = CARTESIAN_POINT ( 'NONE',  ( 12.69999999999999574, 12.69999999999999574, 12.69999999999999929 ) ) ;
#223 = CC_DESIGN_PERSON_AND_ORGANIZATION_ASSIGNMENT ( #180, #8, ( #321 ) ) ;
#224 = CARTESIAN_POINT ( 'NONE',  ( 12.69999999999999929, 12.69999999999999929, 12.69999999999999929 ) ) ;
#225 = APPROVAL_ROLE ( '' ) ;
#226 = CARTESIAN_POINT ( 'NONE',  ( 12.69999999999999929, 12.69999999999999929, -12.69999999999999929 ) ) ;
#227 = DIRECTION ( 'NONE',  ( -2.220446049250312588E-16, 1.000000000000000000, 0.000000000000000000 ) ) ;
#228 = EDGE_CURVE ( 'NONE', #113, #15, #115, .T. ) ;
#229 = DATE_AND_TIME ( #136, #254 ) ;
#230 = CARTESIAN_POINT ( 'NONE',  ( -12.69999999999999574, -12.69999999999999396, 12.69999999999999929 ) ) ;
#231 = DIRECTION ( 'NONE',  ( 1.000000000000000000, 0.000000000000000000, 0.000000000000000000 ) ) ;
#232 = EDGE_CURVE ( 'NONE', #15, #238, #91, .T. ) ;
#233 = VECTOR ( 'NONE', #198, 1000.000000000000000 ) ;
#234 = PLANE ( 'NONE',  #253 ) ;
#235 = PLANE ( 'NONE',  #244 ) ;
#236 = UNCERTAINTY_MEASURE_WITH_UNIT (LENGTH_MEASURE( 1.000000000000000082E-05 ), #239, 'distance_accuracy_value', 'NONE');
#237 = EDGE_CURVE ( 'NONE', #164, #144, #214, .T. ) ;
#238 = VERTEX_POINT ( 'NONE', #255 ) ;
#239 =( LENGTH_UNIT ( ) NAMED_UNIT ( * ) SI_UNIT ( .MILLI., .METRE. ) );
#240 = ORIENTED_EDGE ( 'NONE', *, *, #24, .T. ) ;
#241 = COORDINATED_UNIVERSAL_TIME_OFFSET ( 8, 0, .AHEAD. ) ;
#242 = ORIENTED_EDGE ( 'NONE', *, *, #207, .T. ) ;
#243 = DIRECTION ( 'NONE',  ( 0.000000000000000000, 0.000000000000000000, 1.000000000000000000 ) ) ;
#244 = AXIS2_PLACEMENT_3D ( 'NONE', #96, #171, #197 ) ;
#245 = CARTESIAN_POINT ( 'NONE',  ( 12.69999999999999929, -12.69999999999999929, -12.69999999999999929 ) ) ;
#246 = DATE_TIME_ROLE ( 'creation_date' ) ;
#247 = DIRECTION ( 'NONE',  ( 0.000000000000000000, 0.000000000000000000, -1.000000000000000000 ) ) ;
#248 = CARTESIAN_POINT ( 'NONE',  ( 0.000000000000000000, 0.000000000000000000, 12.69999999999999929 ) ) ;
#249 = AXIS2_PLACEMENT_3D ( 'NONE', #11, #218, #202 ) ;
#250 = APPROVAL_ROLE ( '' ) ;
#251 = COORDINATED_UNIVERSAL_TIME_OFFSET ( 8, 0, .AHEAD. ) ;
#252 = DIRECTION ( 'NONE',  ( -0.000000000000000000, -0.000000000000000000, -1.000000000000000000 ) ) ;
#253 = AXIS2_PLACEMENT_3D ( 'NONE', #84, #190, #59 ) ;
#254 = LOCAL_TIME ( 10, 2, 12.00000000000000000, #104 ) ;
#255 = CARTESIAN_POINT ( 'NONE',  ( -12.69999999999999574, -12.69999999999999396, -12.69999999999999929 ) ) ;
#256 = ADVANCED_FACE ( 'NONE', ( #10 ), #234, .T. ) ;
#257 = CARTESIAN_POINT ( 'NONE',  ( -12.70000000000000284, 12.70000000000000284, -12.69999999999999929 ) ) ;
#258 = VERTEX_POINT ( 'NONE', #161 ) ;
#259 = CC_DESIGN_SECURITY_CLASSIFICATION ( #107, ( #321 ) ) ;
#260 = VERTEX_POINT ( 'NONE', #257 ) ;
#261 = CARTESIAN_POINT ( 'NONE',  ( -12.70000000000000284, 12.70000000000000284, 12.69999999999999929 ) ) ;
#262 = ORIENTED_EDGE ( 'NONE', *, *, #237, .T. ) ;
#263 = PLANE ( 'NONE',  #212 ) ;
#264 = CALENDAR_DATE ( 2021, 5, 1 ) ;
#265 = VECTOR ( 'NONE', #252, 1000.000000000000000 ) ;
#266 = ORIENTED_EDGE ( 'NONE', *, *, #34, .T. ) ;
#267 = CARTESIAN_POINT ( 'NONE',  ( 0.000000000000000000, 0.000000000000000000, -12.69999999999999929 ) ) ;
#268 = ADVANCED_FACE ( 'NONE', ( #33 ), #87, .F. ) ;
#269 = ORIENTED_EDGE ( 'NONE', *, *, #293, .T. ) ;
#270 = APPROVAL_ROLE ( '' ) ;
#271 = FACE_OUTER_BOUND ( 'NONE', #289, .T. ) ;
#272 = CARTESIAN_POINT ( 'NONE',  ( -12.69999999999999574, -12.69999999999999396, 12.69999999999999929 ) ) ;
#273 = PLANE ( 'NONE',  #178 ) ;
#274 = SECURITY_CLASSIFICATION_LEVEL ( 'unclassified' ) ;
#275 = FACE_OUTER_BOUND ( 'NONE', #64, .T. ) ;
#276 = PERSON_AND_ORGANIZATION ( #124, #90 ) ;
#277 = CC_DESIGN_PERSON_AND_ORGANIZATION_ASSIGNMENT ( #42, #196, ( #286 ) ) ;
#278 = DATE_AND_TIME ( #77, #67 ) ;
#279 = CARTESIAN_POINT ( 'NONE',  ( 0.000000000000000000, 0.000000000000000000, -12.69999999999999929 ) ) ;
#280 = VECTOR ( 'NONE', #172, 1000.000000000000000 ) ;
#281 = LINE ( 'NONE', #261, #284 ) ;
#282 = VERTEX_POINT ( 'NONE', #299 ) ;
#283 = ORIENTED_EDGE ( 'NONE', *, *, #207, .F. ) ;
#284 = VECTOR ( 'NONE', #32, 1000.000000000000000 ) ;
#285 = EDGE_LOOP ( 'NONE', ( #262, #168, #294, #114 ) ) ;
#286 = PRODUCT_DEFINITION ( 'UNKNOWN', '', #321, #287 ) ;
#287 = DESIGN_CONTEXT ( 'detailed design', #176, 'design' ) ;
#288 = DIRECTION ( 'NONE',  ( -0.7071067811865475727, -0.7071067811865475727, 0.000000000000000000 ) ) ;
#289 = EDGE_LOOP ( 'NONE', ( #69, #36, #18 ) ) ;
#290 =( NAMED_UNIT ( * ) PLANE_ANGLE_UNIT ( ) SI_UNIT ( $, .RADIAN. ) );
#291 = ORIENTED_EDGE ( 'NONE', *, *, #228, .T. ) ;
#292 = CARTESIAN_POINT ( 'NONE',  ( 12.69999999999999929, -12.69999999999999929, 12.69999999999999929 ) ) ;
#293 = EDGE_CURVE ( 'NONE', #282, #113, #320, .T. ) ;
#294 = ORIENTED_EDGE ( 'NONE', *, *, #24, .F. ) ;
#295 = DIRECTION ( 'NONE',  ( 0.7071067811865475727, 0.7071067811865475727, 0.000000000000000000 ) ) ;
#296 = DIRECTION ( 'NONE',  ( -0.000000000000000000, -0.000000000000000000, -1.000000000000000000 ) ) ;
#297 = DIRECTION ( 'NONE',  ( 1.000000000000000000, 0.000000000000000000, 0.000000000000000000 ) ) ;
#298 = CARTESIAN_POINT ( 'NONE',  ( -12.69999999999999751, -12.69999999999999929, 12.69999999999999929 ) ) ;
#299 = CARTESIAN_POINT ( 'NONE',  ( -12.70000000000000284, 12.70000000000000284, 12.69999999999999929 ) ) ;
#300 = PLANE ( 'NONE',  #163 ) ;
#301 = ADVANCED_FACE ( 'NONE', ( #149 ), #263, .F. ) ;
#302 = CALENDAR_DATE ( 2021, 5, 1 ) ;
#303 = LINE ( 'NONE', #230, #85 ) ;
#304 = APPROVAL ( #127, 'UNSPECIFIED' ) ;
#305 = VECTOR ( 'NONE', #175, 1000.000000000000114 ) ;
#306 = EDGE_LOOP ( 'NONE', ( #135, #192, #146, #40 ) ) ;
#307 = LINE ( 'NONE', #186, #41 ) ;
#308 = ADVANCED_FACE ( 'NONE', ( #95 ), #220, .F. ) ;
#309 = AXIS2_PLACEMENT_3D ( 'NONE', #50, #177, #57 ) ;
#310 = LOCAL_TIME ( 10, 2, 12.00000000000000000, #19 ) ;
#311 = CARTESIAN_POINT ( 'NONE',  ( 12.69999999999999574, 12.69999999999999574, -12.69999999999999929 ) ) ;
#312 = ORIENTED_EDGE ( 'NONE', *, *, #116, .F. ) ;
#313 = VECTOR ( 'NONE', #130, 999.9999999999998863 ) ;
#314 =( GEOMETRIC_REPRESENTATION_CONTEXT ( 3 ) GLOBAL_UNCERTAINTY_ASSIGNED_CONTEXT ( ( #236 ) ) GLOBAL_UNIT_ASSIGNED_CONTEXT ( ( #239, #290, #44 ) ) REPRESENTATION_CONTEXT ( 'NONE', 'WORKASPACE' ) );
#315 = VERTEX_POINT ( 'NONE', #292 ) ;
#316 = MECHANICAL_CONTEXT ( 'NONE', #154, 'mechanical' ) ;
#317 = ORIENTED_EDGE ( 'NONE', *, *, #293, .F. ) ;
#318 = DATE_AND_TIME ( #264, #204 ) ;
#319 = ORIENTED_EDGE ( 'NONE', *, *, #183, .F. ) ;
#320 = LINE ( 'NONE', #167, #280 ) ;
#321 = PRODUCT_DEFINITION_FORMATION_WITH_SPECIFIED_SOURCE ( 'ANY', '', #109, .NOT_KNOWN. ) ;
ENDSEC;
END-ISO-10303-21;
